ISO-10303-21;
HEADER;
FILE_DESCRIPTION (( 'STEP AP203' ),
    '1' );
FILE_NAME ('QB-CTZQWP-12.7-1310-M.STEP',
    '2020-12-24T01:49:06',
    ( '' ),
    ( '' ),
    'SwSTEP 2.0',
    'SolidWorks 2020',
    '' );
FILE_SCHEMA (( 'CONFIG_CONTROL_DESIGN' ));
ENDSEC;

DATA;
#1 = LOCAL_TIME ( 9, 49, 6.000000000000000000, #69 ) ;
#2 = DIRECTION ( 'NONE',  ( 1.000000000000000000, 0.000000000000000000, 0.000000000000000000 ) ) ;
#3 = PERSON_AND_ORGANIZATION_ROLE ( 'creator' ) ;
#4 = APPLICATION_PROTOCOL_DEFINITION ( 'international standard', 'config_control_design', 1994, #312 ) ;
#5 = ADVANCED_FACE ( 'NONE', ( #87, #244 ), #15, .F. ) ;
#6 = CIRCLE ( 'NONE', #70, 6.349999999999999645 ) ;
#7 = ORIENTED_EDGE ( 'NONE', *, *, #240, .F. ) ;
#8 = PLANE ( 'NONE',  #140 ) ;
#9 = CARTESIAN_POINT ( 'NONE',  ( -3.000000000000000000, 1.555301434917138433E-15, -12.69999999999999929 ) ) ;
#10 = DIRECTION ( 'NONE',  ( -1.000000000000000000, -0.000000000000000000, -0.000000000000000000 ) ) ;
#11 = ORIENTED_EDGE ( 'NONE', *, *, #78, .F. ) ;
#12 = VERTEX_POINT ( 'NONE', #208 ) ;
#13 = CARTESIAN_POINT ( 'NONE',  ( 1.500000000000000888, 0.000000000000000000, 0.000000000000000000 ) ) ;
#14 = ORIENTED_EDGE ( 'NONE', *, *, #154, .T. ) ;
#15 = PLANE ( 'NONE',  #66 ) ;
#16 = AXIS2_PLACEMENT_3D ( 'NONE', #193, #248, #197 ) ;
#17 = FACE_BOUND ( 'NONE', #115, .T. ) ;
#18 = ORIENTED_EDGE ( 'NONE', *, *, #143, .T. ) ;
#19 = LINE ( 'NONE', #141, #88 ) ;
#20 = DIRECTION ( 'NONE',  ( -1.000000000000000000, -0.000000000000000000, -0.000000000000000000 ) ) ;
#21 = VECTOR ( 'NONE', #301, 1000.000000000000000 ) ;
#22 =( GEOMETRIC_REPRESENTATION_CONTEXT ( 3 ) GLOBAL_UNCERTAINTY_ASSIGNED_CONTEXT ( ( #51 ) ) GLOBAL_UNIT_ASSIGNED_CONTEXT ( ( #48, #156, #50 ) ) REPRESENTATION_CONTEXT ( 'NONE', 'WORKASPACE' ) );
#23 = PERSON_AND_ORGANIZATION_ROLE ( 'classification_officer' ) ;
#24 = PERSON_AND_ORGANIZATION ( #27, #46 ) ;
#25 = PERSON_AND_ORGANIZATION ( #27, #46 ) ;
#26 = CALENDAR_DATE ( 2020, 24, 12 ) ;
#27 = PERSON ( 'UNSPECIFIED', 'UNSPECIFIED', 'UNSPECIFIED', ('UNSPECIFIED'), ('UNSPECIFIED'), ('UNSPECIFIED') ) ;
#28 = CIRCLE ( 'NONE', #96, 12.69999999999999929 ) ;
#29 = ORIENTED_EDGE ( 'NONE', *, *, #194, .T. ) ;
#30 = CARTESIAN_POINT ( 'NONE',  ( 3.000000000000000888, 0.000000000000000000, 6.349999999999999645 ) ) ;
#31 = ORIENTED_EDGE ( 'NONE', *, *, #159, .F. ) ;
#32 = FACE_OUTER_BOUND ( 'NONE', #300, .T. ) ;
#33 = CARTESIAN_POINT ( 'NONE',  ( 1.500000000000000444, 6.349999999999999645, 0.000000000000000000 ) ) ;
#34 = LINE ( 'NONE', #160, #157 ) ;
#35 = LOCAL_TIME ( 9, 49, 6.000000000000000000, #123 ) ;
#36 = ORIENTED_EDGE ( 'NONE', *, *, #182, .F. ) ;
#37 = ORIENTED_EDGE ( 'NONE', *, *, #332, .F. ) ;
#38 = FACE_OUTER_BOUND ( 'NONE', #302, .T. ) ;
#39 = CC_DESIGN_PERSON_AND_ORGANIZATION_ASSIGNMENT ( #25, #124, ( #206 ) ) ;
#40 = DIRECTION ( 'NONE',  ( -1.000000000000000000, -0.000000000000000000, -0.000000000000000000 ) ) ;
#41 = SECURITY_CLASSIFICATION ( '', '', #278 ) ;
#42 = CARTESIAN_POINT ( 'NONE',  ( -1.614212418857619014, 0.000000000000000000, 0.000000000000000000 ) ) ;
#43 = CC_DESIGN_PERSON_AND_ORGANIZATION_ASSIGNMENT ( #255, #23, ( #41 ) ) ;
#44 = CARTESIAN_POINT ( 'NONE',  ( -1.500000000000000444, 0.000000000000000000, 6.349999999999999645 ) ) ;
#45 = DATE_TIME_ROLE ( 'creation_date' ) ;
#46 = ORGANIZATION ( 'UNSPECIFIED', 'UNSPECIFIED', '' ) ;
#47 = DATE_TIME_ROLE ( 'classification_date' ) ;
#48 =( LENGTH_UNIT ( ) NAMED_UNIT ( * ) SI_UNIT ( .MILLI., .METRE. ) );
#49 = CALENDAR_DATE ( 2020, 24, 12 ) ;
#50 =( NAMED_UNIT ( * ) SI_UNIT ( $, .STERADIAN. ) SOLID_ANGLE_UNIT ( ) );
#51 = UNCERTAINTY_MEASURE_WITH_UNIT (LENGTH_MEASURE( 1.000000000000000082E-05 ), #48, 'distance_accuracy_value', 'NONE');
#52 = MECHANICAL_CONTEXT ( 'NONE', #312, 'mechanical' ) ;
#53 = CARTESIAN_POINT ( 'NONE',  ( -1.614212418857619014, 0.000000000000000000, 0.000000000000000000 ) ) ;
#54 = CIRCLE ( 'NONE', #147, 12.69999999999999929 ) ;
#55 = ORIENTED_EDGE ( 'NONE', *, *, #182, .T. ) ;
#56 = DIRECTION ( 'NONE',  ( -1.000000000000000000, -0.000000000000000000, -0.000000000000000000 ) ) ;
#57 = EDGE_LOOP ( 'NONE', ( #7, #11 ) ) ;
#58 = DIRECTION ( 'NONE',  ( -1.000000000000000000, -0.000000000000000000, -0.000000000000000000 ) ) ;
#59 = ORIENTED_EDGE ( 'NONE', *, *, #138, .T. ) ;
#60 = CARTESIAN_POINT ( 'NONE',  ( -1.614212418857619014, 0.000000000000000000, 6.349999999999999645 ) ) ;
#61 = AXIS2_PLACEMENT_3D ( 'NONE', #256, #76, #259 ) ;
#62 = ORIENTED_EDGE ( 'NONE', *, *, #275, .T. ) ;
#63 = VERTEX_POINT ( 'NONE', #9 ) ;
#64 = VERTEX_POINT ( 'NONE', #313 ) ;
#65 = CARTESIAN_POINT ( 'NONE',  ( -1.500000000000000444, 0.000000000000000000, 0.000000000000000000 ) ) ;
#66 = AXIS2_PLACEMENT_3D ( 'NONE', #260, #183, #233 ) ;
#67 = VERTEX_POINT ( 'NONE', #80 ) ;
#68 = CARTESIAN_POINT ( 'NONE',  ( -1.614212418857619014, 1.555301434917138433E-15, -12.69999999999999929 ) ) ;
#69 = COORDINATED_UNIVERSAL_TIME_OFFSET ( 8, 0, .AHEAD. ) ;
#70 = AXIS2_PLACEMENT_3D ( 'NONE', #13, #10, #81 ) ;
#71 = ADVANCED_FACE ( 'NONE', ( #210 ), #83, .F. ) ;
#72 = CARTESIAN_POINT ( 'NONE',  ( 3.000000000000000000, 1.555301434917138433E-15, -12.69999999999999929 ) ) ;
#73 = DATE_AND_TIME ( #26, #1 ) ;
#74 = AXIS2_PLACEMENT_3D ( 'NONE', #53, #58, #162 ) ;
#75 = PLANE ( 'NONE',  #200 ) ;
#76 = DIRECTION ( 'NONE',  ( 0.000000000000000000, 0.000000000000000000, 1.000000000000000000 ) ) ;
#77 = MANIFOLD_SOLID_BREP ( 'Ðý×', #79 ) ;
#78 = EDGE_CURVE ( 'NONE', #165, #67, #168, .T. ) ;
#79 = CLOSED_SHELL ( 'NONE', ( #175, #202, #71, #236, #207, #290, #5, #137, #146, #306 ) ) ;
#80 = CARTESIAN_POINT ( 'NONE',  ( 1.500000000000000888, 0.000000000000000000, 6.349999999999999645 ) ) ;
#81 = DIRECTION ( 'NONE',  ( 0.000000000000000000, 0.000000000000000000, 1.000000000000000000 ) ) ;
#82 = AXIS2_PLACEMENT_3D ( 'NONE', #185, #56, #213 ) ;
#83 = CYLINDRICAL_SURFACE ( 'NONE', #237, 6.349999999999999645 ) ;
#84 = CARTESIAN_POINT ( 'NONE',  ( 3.000000000000000888, 0.000000000000000000, 0.000000000000000000 ) ) ;
#85 = EDGE_CURVE ( 'NONE', #134, #63, #152, .T. ) ;
#86 = CYLINDRICAL_SURFACE ( 'NONE', #228, 6.349999999999999645 ) ;
#87 = FACE_BOUND ( 'NONE', #188, .T. ) ;
#88 = VECTOR ( 'NONE', #325, 1000.000000000000000 ) ;
#89 = VERTEX_POINT ( 'NONE', #224 ) ;
#90 = EDGE_LOOP ( 'NONE', ( #293, #18, #161, #31 ) ) ;
#91 = DIRECTION ( 'NONE',  ( 0.000000000000000000, 0.000000000000000000, 1.000000000000000000 ) ) ;
#92 = CC_DESIGN_PERSON_AND_ORGANIZATION_ASSIGNMENT ( #254, #3, ( #297 ) ) ;
#93 = ORIENTED_EDGE ( 'NONE', *, *, #154, .F. ) ;
#94 = CARTESIAN_POINT ( 'NONE',  ( -3.000000000000000000, 0.000000000000000000, 0.000000000000000000 ) ) ;
#95 = DIRECTION ( 'NONE',  ( 0.000000000000000000, 0.000000000000000000, 1.000000000000000000 ) ) ;
#96 = AXIS2_PLACEMENT_3D ( 'NONE', #94, #196, #303 ) ;
#97 = VECTOR ( 'NONE', #129, 1000.000000000000000 ) ;
#98 = DIRECTION ( 'NONE',  ( -1.000000000000000000, -0.000000000000000000, -0.000000000000000000 ) ) ;
#99 = APPROVAL_ROLE ( '' ) ;
#100 = APPROVAL_DATE_TIME ( #203, #109 ) ;
#101 = CC_DESIGN_APPROVAL ( #231, ( #41 ) ) ;
#102 = LOCAL_TIME ( 9, 49, 6.000000000000000000, #230 ) ;
#103 = APPROVAL_STATUS ( 'not_yet_approved' ) ;
#104 = COORDINATED_UNIVERSAL_TIME_OFFSET ( 8, 0, .AHEAD. ) ;
#105 = CIRCLE ( 'NONE', #294, 6.349999999999999645 ) ;
#106 = LOCAL_TIME ( 9, 49, 6.000000000000000000, #104 ) ;
#107 = ORIENTED_EDGE ( 'NONE', *, *, #279, .T. ) ;
#108 = DIRECTION ( 'NONE',  ( 0.000000000000000000, 0.000000000000000000, 1.000000000000000000 ) ) ;
#109 = APPROVAL ( #311, 'UNSPECIFIED' ) ;
#110 = LINE ( 'NONE', #263, #133 ) ;
#111 = CARTESIAN_POINT ( 'NONE',  ( -1.614212418857619014, 0.000000000000000000, 0.000000000000000000 ) ) ;
#112 = ORIENTED_EDGE ( 'NONE', *, *, #170, .T. ) ;
#113 = ORIENTED_EDGE ( 'NONE', *, *, #194, .F. ) ;
#114 = DIRECTION ( 'NONE',  ( -1.000000000000000000, -0.000000000000000000, -0.000000000000000000 ) ) ;
#115 = EDGE_LOOP ( 'NONE', ( #62, #59 ) ) ;
#116 = AXIS2_PLACEMENT_3D ( 'NONE', #144, #276, #307 ) ;
#117 = ORIENTED_EDGE ( 'NONE', *, *, #271, .F. ) ;
#118 = CIRCLE ( 'NONE', #304, 6.349999999999999645 ) ;
#119 = PLANE ( 'NONE',  #251 ) ;
#120 = APPROVAL_PERSON_ORGANIZATION ( #24, #231, #177 ) ;
#121 = DIRECTION ( 'NONE',  ( 0.000000000000000000, 0.000000000000000000, 1.000000000000000000 ) ) ;
#122 = PERSON_AND_ORGANIZATION_ROLE ( 'creator' ) ;
#123 = COORDINATED_UNIVERSAL_TIME_OFFSET ( 8, 0, .AHEAD. ) ;
#124 = PERSON_AND_ORGANIZATION_ROLE ( 'design_owner' ) ;
#125 = PERSON_AND_ORGANIZATION ( #27, #46 ) ;
#126 = AXIS2_PLACEMENT_3D ( 'NONE', #204, #284, #150 ) ;
#127 = DIRECTION ( 'NONE',  ( 0.000000000000000000, 0.000000000000000000, -1.000000000000000000 ) ) ;
#128 = ORIENTED_EDGE ( 'NONE', *, *, #226, .F. ) ;
#129 = DIRECTION ( 'NONE',  ( -1.000000000000000000, -0.000000000000000000, -0.000000000000000000 ) ) ;
#130 = CARTESIAN_POINT ( 'NONE',  ( -1.614212418857619014, 0.000000000000000000, 0.000000000000000000 ) ) ;
#131 = CC_DESIGN_PERSON_AND_ORGANIZATION_ASSIGNMENT ( #125, #225, ( #297 ) ) ;
#132 = DIRECTION ( 'NONE',  ( 0.000000000000000000, 0.000000000000000000, 1.000000000000000000 ) ) ;
#133 = VECTOR ( 'NONE', #211, 1000.000000000000000 ) ;
#134 = VERTEX_POINT ( 'NONE', #330 ) ;
#135 = DIRECTION ( 'NONE',  ( -1.000000000000000000, -0.000000000000000000, -0.000000000000000000 ) ) ;
#136 = ORIENTED_EDGE ( 'NONE', *, *, #170, .F. ) ;
#137 = ADVANCED_FACE ( 'NONE', ( #222 ), #323, .T. ) ;
#138 = EDGE_CURVE ( 'NONE', #64, #215, #174, .T. ) ;
#139 = DIRECTION ( 'NONE',  ( 0.000000000000000000, 0.000000000000000000, 1.000000000000000000 ) ) ;
#140 = AXIS2_PLACEMENT_3D ( 'NONE', #33, #315, #318 ) ;
#141 = CARTESIAN_POINT ( 'NONE',  ( -1.614212418857619014, 0.000000000000000000, 12.69999999999999929 ) ) ;
#142 = DIRECTION ( 'NONE',  ( 1.000000000000000000, 0.000000000000000000, 0.000000000000000000 ) ) ;
#143 = EDGE_CURVE ( 'NONE', #319, #63, #167, .T. ) ;
#144 = CARTESIAN_POINT ( 'NONE',  ( 3.000000000000000888, 0.000000000000000000, 0.000000000000000000 ) ) ;
#145 = CIRCLE ( 'NONE', #199, 6.349999999999999645 ) ;
#146 = ADVANCED_FACE ( 'NONE', ( #38, #17 ), #119, .F. ) ;
#147 = AXIS2_PLACEMENT_3D ( 'NONE', #292, #238, #108 ) ;
#148 = COORDINATED_UNIVERSAL_TIME_OFFSET ( 8, 0, .AHEAD. ) ;
#149 = PERSON_AND_ORGANIZATION ( #27, #46 ) ;
#150 = DIRECTION ( 'NONE',  ( 0.000000000000000000, 0.000000000000000000, 1.000000000000000000 ) ) ;
#151 = APPLICATION_PROTOCOL_DEFINITION ( 'international standard', 'config_control_design', 1994, #285 ) ;
#152 = CIRCLE ( 'NONE', #310, 12.69999999999999929 ) ;
#153 = CARTESIAN_POINT ( 'NONE',  ( -1.500000000000000444, 6.349999999999999645, 0.000000000000000000 ) ) ;
#154 = EDGE_CURVE ( 'NONE', #163, #241, #105, .T. ) ;
#155 = EDGE_CURVE ( 'NONE', #12, #89, #145, .T. ) ;
#156 =( NAMED_UNIT ( * ) PLANE_ANGLE_UNIT ( ) SI_UNIT ( $, .RADIAN. ) );
#157 = VECTOR ( 'NONE', #135, 1000.000000000000000 ) ;
#158 = LINE ( 'NONE', #60, #97 ) ;
#159 = EDGE_CURVE ( 'NONE', #322, #134, #19, .T. ) ;
#160 = CARTESIAN_POINT ( 'NONE',  ( -1.614212418857619014, 0.000000000000000000, 6.349999999999999645 ) ) ;
#161 = ORIENTED_EDGE ( 'NONE', *, *, #85, .F. ) ;
#162 = DIRECTION ( 'NONE',  ( 0.000000000000000000, 0.000000000000000000, 1.000000000000000000 ) ) ;
#163 = VERTEX_POINT ( 'NONE', #44 ) ;
#164 = CARTESIAN_POINT ( 'NONE',  ( -1.500000000000000444, 7.776507174585692163E-16, -6.349999999999999645 ) ) ;
#165 = VERTEX_POINT ( 'NONE', #252 ) ;
#166 = ORIENTED_EDGE ( 'NONE', *, *, #335, .F. ) ;
#167 = LINE ( 'NONE', #68, #21 ) ;
#168 = CIRCLE ( 'NONE', #282, 6.349999999999999645 ) ;
#169 = DIRECTION ( 'NONE',  ( 0.000000000000000000, 0.000000000000000000, -1.000000000000000000 ) ) ;
#170 = EDGE_CURVE ( 'NONE', #63, #134, #28, .T. ) ;
#171 = FACE_OUTER_BOUND ( 'NONE', #90, .T. ) ;
#172 = CARTESIAN_POINT ( 'NONE',  ( -3.000000000000000000, 0.000000000000000000, 0.000000000000000000 ) ) ;
#173 = APPROVAL ( #103, 'UNSPECIFIED' ) ;
#174 = CIRCLE ( 'NONE', #116, 6.349999999999999645 ) ;
#175 = ADVANCED_FACE ( 'NONE', ( #171 ), #274, .T. ) ;
#176 = APPROVAL_DATE_TIME ( #73, #173 ) ;
#177 = APPROVAL_ROLE ( '' ) ;
#178 = FACE_OUTER_BOUND ( 'NONE', #195, .T. ) ;
#179 = CALENDAR_DATE ( 2020, 24, 12 ) ;
#180 = DIRECTION ( 'NONE',  ( 0.000000000000000000, 0.000000000000000000, -1.000000000000000000 ) ) ;
#181 = CC_DESIGN_DATE_AND_TIME_ASSIGNMENT ( #227, #45, ( #314 ) ) ;
#182 = EDGE_CURVE ( 'NONE', #64, #165, #110, .T. ) ;
#183 = DIRECTION ( 'NONE',  ( 1.000000000000000000, 0.000000000000000000, 0.000000000000000000 ) ) ;
#184 = CC_DESIGN_APPROVAL ( #173, ( #297 ) ) ;
#185 = CARTESIAN_POINT ( 'NONE',  ( 3.000000000000000000, 0.000000000000000000, 0.000000000000000000 ) ) ;
#186 = CARTESIAN_POINT ( 'NONE',  ( -1.614212418857619014, 0.000000000000000000, 0.000000000000000000 ) ) ;
#187 = CYLINDRICAL_SURFACE ( 'NONE', #74, 6.349999999999999645 ) ;
#188 = EDGE_LOOP ( 'NONE', ( #214, #166 ) ) ;
#189 = ORIENTED_EDGE ( 'NONE', *, *, #279, .F. ) ;
#190 = ORIENTED_EDGE ( 'NONE', *, *, #229, .F. ) ;
#191 = CIRCLE ( 'NONE', #273, 6.349999999999999645 ) ;
#192 = ORIENTED_EDGE ( 'NONE', *, *, #85, .T. ) ;
#193 = CARTESIAN_POINT ( 'NONE',  ( -1.614212418857619014, 0.000000000000000000, 0.000000000000000000 ) ) ;
#194 = EDGE_CURVE ( 'NONE', #215, #67, #158, .T. ) ;
#195 = EDGE_LOOP ( 'NONE', ( #93, #37 ) ) ;
#196 = DIRECTION ( 'NONE',  ( -1.000000000000000000, -0.000000000000000000, -0.000000000000000000 ) ) ;
#197 = DIRECTION ( 'NONE',  ( 0.000000000000000000, 0.000000000000000000, 1.000000000000000000 ) ) ;
#198 = APPROVAL_STATUS ( 'not_yet_approved' ) ;
#199 = AXIS2_PLACEMENT_3D ( 'NONE', #272, #40, #121 ) ;
#200 = AXIS2_PLACEMENT_3D ( 'NONE', #153, #281, #127 ) ;
#201 = PERSON_AND_ORGANIZATION ( #27, #46 ) ;
#202 = ADVANCED_FACE ( 'NONE', ( #32 ), #86, .F. ) ;
#203 = DATE_AND_TIME ( #333, #102 ) ;
#204 = CARTESIAN_POINT ( 'NONE',  ( -2.999999999999999556, 0.000000000000000000, 0.000000000000000000 ) ) ;
#205 = DATE_AND_TIME ( #308, #331 ) ;
#206 = PRODUCT ( 'QB-CTZQWP-12.7-1310-M', 'QB-CTZQWP-12.7-1310-M', '', ( #52 ) ) ;
#207 = ADVANCED_FACE ( 'NONE', ( #242 ), #209, .F. ) ;
#208 = CARTESIAN_POINT ( 'NONE',  ( -2.999999999999999556, 0.000000000000000000, 6.349999999999999645 ) ) ;
#209 = CYLINDRICAL_SURFACE ( 'NONE', #218, 6.349999999999999645 ) ;
#210 = FACE_OUTER_BOUND ( 'NONE', #212, .T. ) ;
#211 = DIRECTION ( 'NONE',  ( -1.000000000000000000, -0.000000000000000000, -0.000000000000000000 ) ) ;
#212 = EDGE_LOOP ( 'NONE', ( #296, #55, #324, #113 ) ) ;
#213 = DIRECTION ( 'NONE',  ( 0.000000000000000000, 0.000000000000000000, 1.000000000000000000 ) ) ;
#214 = ORIENTED_EDGE ( 'NONE', *, *, #155, .F. ) ;
#215 = VERTEX_POINT ( 'NONE', #30 ) ;
#216 = FACE_OUTER_BOUND ( 'NONE', #235, .T. ) ;
#217 = ORIENTED_EDGE ( 'NONE', *, *, #332, .T. ) ;
#218 = AXIS2_PLACEMENT_3D ( 'NONE', #130, #261, #132 ) ;
#219 = EDGE_LOOP ( 'NONE', ( #192, #112 ) ) ;
#220 = DIRECTION ( 'NONE',  ( -0.000000000000000000, 0.000000000000000000, 1.000000000000000000 ) ) ;
#221 = ORIENTED_EDGE ( 'NONE', *, *, #275, .F. ) ;
#222 = FACE_OUTER_BOUND ( 'NONE', #268, .T. ) ;
#223 = DIRECTION ( 'NONE',  ( -1.000000000000000000, -0.000000000000000000, -0.000000000000000000 ) ) ;
#224 = CARTESIAN_POINT ( 'NONE',  ( -2.999999999999999556, 7.776507174585692163E-16, -6.349999999999999645 ) ) ;
#225 = PERSON_AND_ORGANIZATION_ROLE ( 'design_supplier' ) ;
#226 = EDGE_CURVE ( 'NONE', #322, #319, #54, .T. ) ;
#227 = DATE_AND_TIME ( #49, #106 ) ;
#228 = AXIS2_PLACEMENT_3D ( 'NONE', #111, #234, #295 ) ;
#229 = EDGE_CURVE ( 'NONE', #241, #89, #316, .T. ) ;
#230 = COORDINATED_UNIVERSAL_TIME_OFFSET ( 8, 0, .AHEAD. ) ;
#231 = APPROVAL ( #198, 'UNSPECIFIED' ) ;
#232 = PRODUCT_RELATED_PRODUCT_CATEGORY ( 'detail', '', ( #206 ) ) ;
#233 = DIRECTION ( 'NONE',  ( 0.000000000000000000, 0.000000000000000000, -1.000000000000000000 ) ) ;
#234 = DIRECTION ( 'NONE',  ( -1.000000000000000000, -0.000000000000000000, -0.000000000000000000 ) ) ;
#235 = EDGE_LOOP ( 'NONE', ( #190, #217, #107, #299 ) ) ;
#236 = ADVANCED_FACE ( 'NONE', ( #289 ), #8, .F. ) ;
#237 = AXIS2_PLACEMENT_3D ( 'NONE', #186, #291, #91 ) ;
#238 = DIRECTION ( 'NONE',  ( -1.000000000000000000, -0.000000000000000000, -0.000000000000000000 ) ) ;
#239 = ORIENTED_EDGE ( 'NONE', *, *, #143, .F. ) ;
#240 = EDGE_CURVE ( 'NONE', #67, #165, #6, .T. ) ;
#241 = VERTEX_POINT ( 'NONE', #164 ) ;
#242 = FACE_OUTER_BOUND ( 'NONE', #265, .T. ) ;
#243 = ORIENTED_EDGE ( 'NONE', *, *, #229, .T. ) ;
#244 = FACE_OUTER_BOUND ( 'NONE', #219, .T. ) ;
#245 = DIRECTION ( 'NONE',  ( -1.000000000000000000, 0.000000000000000000, -0.000000000000000000 ) ) ;
#246 = CC_DESIGN_SECURITY_CLASSIFICATION ( #41, ( #297 ) ) ;
#247 = APPROVAL_PERSON_ORGANIZATION ( #277, #109, #99 ) ;
#248 = DIRECTION ( 'NONE',  ( -1.000000000000000000, -0.000000000000000000, -0.000000000000000000 ) ) ;
#249 = CARTESIAN_POINT ( 'NONE',  ( 1.500000000000000888, 0.000000000000000000, 0.000000000000000000 ) ) ;
#250 = PRODUCT_DEFINITION_SHAPE ( 'NONE', 'NONE',  #314 ) ;
#251 = AXIS2_PLACEMENT_3D ( 'NONE', #269, #245, #220 ) ;
#252 = CARTESIAN_POINT ( 'NONE',  ( 1.500000000000000888, 7.776507174585692163E-16, -6.349999999999999645 ) ) ;
#253 = CC_DESIGN_APPROVAL ( #109, ( #314 ) ) ;
#254 = PERSON_AND_ORGANIZATION ( #27, #46 ) ;
#255 = PERSON_AND_ORGANIZATION ( #27, #46 ) ;
#256 = CARTESIAN_POINT ( 'NONE',  ( 0.000000000000000000, 0.000000000000000000, 0.000000000000000000 ) ) ;
#257 = CARTESIAN_POINT ( 'NONE',  ( -1.500000000000000444, 0.000000000000000000, 0.000000000000000000 ) ) ;
#258 = CARTESIAN_POINT ( 'NONE',  ( 3.000000000000000000, 0.000000000000000000, 12.69999999999999929 ) ) ;
#259 = DIRECTION ( 'NONE',  ( 1.000000000000000000, 0.000000000000000000, 0.000000000000000000 ) ) ;
#260 = CARTESIAN_POINT ( 'NONE',  ( -3.000000000000000000, 6.349999999999999645, 0.000000000000000000 ) ) ;
#261 = DIRECTION ( 'NONE',  ( -1.000000000000000000, -0.000000000000000000, -0.000000000000000000 ) ) ;
#262 = CC_DESIGN_DATE_AND_TIME_ASSIGNMENT ( #205, #47, ( #41 ) ) ;
#263 = CARTESIAN_POINT ( 'NONE',  ( -1.614212418857619014, 7.776507174585692163E-16, -6.349999999999999645 ) ) ;
#264 = DIRECTION ( 'NONE',  ( -1.000000000000000000, -0.000000000000000000, -0.000000000000000000 ) ) ;
#265 = EDGE_LOOP ( 'NONE', ( #36, #221, #29, #298 ) ) ;
#266 = CIRCLE ( 'NONE', #126, 6.349999999999999645 ) ;
#267 = DIRECTION ( 'NONE',  ( 0.000000000000000000, 0.000000000000000000, 1.000000000000000000 ) ) ;
#268 = EDGE_LOOP ( 'NONE', ( #239, #320, #287, #136 ) ) ;
#269 = CARTESIAN_POINT ( 'NONE',  ( 3.000000000000000000, 12.69999999999999929, 0.000000000000000000 ) ) ;
#270 = CC_DESIGN_PERSON_AND_ORGANIZATION_ASSIGNMENT ( #201, #122, ( #314 ) ) ;
#271 = EDGE_CURVE ( 'NONE', #319, #322, #328, .T. ) ;
#272 = CARTESIAN_POINT ( 'NONE',  ( -2.999999999999999556, 0.000000000000000000, 0.000000000000000000 ) ) ;
#273 = AXIS2_PLACEMENT_3D ( 'NONE', #257, #2, #180 ) ;
#274 = CYLINDRICAL_SURFACE ( 'NONE', #327, 12.69999999999999929 ) ;
#275 = EDGE_CURVE ( 'NONE', #215, #64, #118, .T. ) ;
#276 = DIRECTION ( 'NONE',  ( -1.000000000000000000, -0.000000000000000000, -0.000000000000000000 ) ) ;
#277 = PERSON_AND_ORGANIZATION ( #27, #46 ) ;
#278 = SECURITY_CLASSIFICATION_LEVEL ( 'unclassified' ) ;
#279 = EDGE_CURVE ( 'NONE', #163, #12, #34, .T. ) ;
#280 = DATE_AND_TIME ( #179, #35 ) ;
#281 = DIRECTION ( 'NONE',  ( 1.000000000000000000, 0.000000000000000000, 0.000000000000000000 ) ) ;
#282 = AXIS2_PLACEMENT_3D ( 'NONE', #249, #98, #139 ) ;
#283 = SHAPE_DEFINITION_REPRESENTATION ( #250, #329 ) ;
#284 = DIRECTION ( 'NONE',  ( -1.000000000000000000, -0.000000000000000000, -0.000000000000000000 ) ) ;
#285 = APPLICATION_CONTEXT ( 'configuration controlled 3d designs of mechanical parts and assemblies' ) ;
#286 = CARTESIAN_POINT ( 'NONE',  ( -1.614212418857619014, 7.776507174585692163E-16, -6.349999999999999645 ) ) ;
#287 = ORIENTED_EDGE ( 'NONE', *, *, #159, .T. ) ;
#288 = APPROVAL_PERSON_ORGANIZATION ( #149, #173, #309 ) ;
#289 = FACE_OUTER_BOUND ( 'NONE', #57, .T. ) ;
#290 = ADVANCED_FACE ( 'NONE', ( #216 ), #187, .F. ) ;
#291 = DIRECTION ( 'NONE',  ( -1.000000000000000000, -0.000000000000000000, -0.000000000000000000 ) ) ;
#292 = CARTESIAN_POINT ( 'NONE',  ( 3.000000000000000000, 0.000000000000000000, 0.000000000000000000 ) ) ;
#293 = ORIENTED_EDGE ( 'NONE', *, *, #226, .T. ) ;
#294 = AXIS2_PLACEMENT_3D ( 'NONE', #65, #142, #169 ) ;
#295 = DIRECTION ( 'NONE',  ( 0.000000000000000000, 0.000000000000000000, 1.000000000000000000 ) ) ;
#296 = ORIENTED_EDGE ( 'NONE', *, *, #138, .F. ) ;
#297 = PRODUCT_DEFINITION_FORMATION_WITH_SPECIFIED_SOURCE ( 'ANY', '', #206, .NOT_KNOWN. ) ;
#298 = ORIENTED_EDGE ( 'NONE', *, *, #240, .T. ) ;
#299 = ORIENTED_EDGE ( 'NONE', *, *, #155, .T. ) ;
#300 = EDGE_LOOP ( 'NONE', ( #14, #243, #321, #189 ) ) ;
#301 = DIRECTION ( 'NONE',  ( -1.000000000000000000, -0.000000000000000000, -0.000000000000000000 ) ) ;
#302 = EDGE_LOOP ( 'NONE', ( #128, #117 ) ) ;
#303 = DIRECTION ( 'NONE',  ( 0.000000000000000000, 0.000000000000000000, 1.000000000000000000 ) ) ;
#304 = AXIS2_PLACEMENT_3D ( 'NONE', #84, #114, #267 ) ;
#305 = VECTOR ( 'NONE', #264, 1000.000000000000000 ) ;
#306 = ADVANCED_FACE ( 'NONE', ( #178 ), #75, .F. ) ;
#307 = DIRECTION ( 'NONE',  ( 0.000000000000000000, 0.000000000000000000, 1.000000000000000000 ) ) ;
#308 = CALENDAR_DATE ( 2020, 24, 12 ) ;
#309 = APPROVAL_ROLE ( '' ) ;
#310 = AXIS2_PLACEMENT_3D ( 'NONE', #172, #223, #95 ) ;
#311 = APPROVAL_STATUS ( 'not_yet_approved' ) ;
#312 = APPLICATION_CONTEXT ( 'configuration controlled 3d designs of mechanical parts and assemblies' ) ;
#313 = CARTESIAN_POINT ( 'NONE',  ( 3.000000000000000888, 7.776507174585692163E-16, -6.349999999999999645 ) ) ;
#314 = PRODUCT_DEFINITION ( 'UNKNOWN', '', #297, #317 ) ;
#315 = DIRECTION ( 'NONE',  ( -1.000000000000000000, 0.000000000000000000, -0.000000000000000000 ) ) ;
#316 = LINE ( 'NONE', #286, #305 ) ;
#317 = DESIGN_CONTEXT ( 'detailed design', #285, 'design' ) ;
#318 = DIRECTION ( 'NONE',  ( -0.000000000000000000, 0.000000000000000000, 1.000000000000000000 ) ) ;
#319 = VERTEX_POINT ( 'NONE', #72 ) ;
#320 = ORIENTED_EDGE ( 'NONE', *, *, #271, .T. ) ;
#321 = ORIENTED_EDGE ( 'NONE', *, *, #335, .T. ) ;
#322 = VERTEX_POINT ( 'NONE', #258 ) ;
#323 = CYLINDRICAL_SURFACE ( 'NONE', #16, 12.69999999999999929 ) ;
#324 = ORIENTED_EDGE ( 'NONE', *, *, #78, .T. ) ;
#325 = DIRECTION ( 'NONE',  ( -1.000000000000000000, -0.000000000000000000, -0.000000000000000000 ) ) ;
#326 = DIRECTION ( 'NONE',  ( 0.000000000000000000, 0.000000000000000000, 1.000000000000000000 ) ) ;
#327 = AXIS2_PLACEMENT_3D ( 'NONE', #42, #20, #326 ) ;
#328 = CIRCLE ( 'NONE', #82, 12.69999999999999929 ) ;
#329 = ADVANCED_BREP_SHAPE_REPRESENTATION ( 'QB-CTZQWP-12.7-1310-M', ( #77, #61 ), #22 ) ;
#330 = CARTESIAN_POINT ( 'NONE',  ( -3.000000000000000000, 0.000000000000000000, 12.69999999999999929 ) ) ;
#331 = LOCAL_TIME ( 9, 49, 6.000000000000000000, #148 ) ;
#332 = EDGE_CURVE ( 'NONE', #241, #163, #191, .T. ) ;
#333 = CALENDAR_DATE ( 2020, 24, 12 ) ;
#334 = APPROVAL_DATE_TIME ( #280, #231 ) ;
#335 = EDGE_CURVE ( 'NONE', #89, #12, #266, .T. ) ;
ENDSEC;
END-ISO-10303-21;
